Welcome
Visit our main site at http://alphabet-town.com!

1-27-13: Welcome Blamonet members!

instrumental tabs

instrumental tabs

Postby Alex » Fri Oct 25, 2013 4:52 am

Hey, i'm looking for any tabs or even fragments of tabs and chords of the instrumental songs elliott wrote. I like to give it a try and figure them out.
I know that "somedude" knows how to play the (10.14.99)satyricon-instrumental .. but i couldn't find any tab on the internet, even not on his page (smilingatconfusion).

I'm looking especially for:

Instrumental (2-23-1999) showbox- think that one is in open C tuning
Instrumental (10-14-1999) satyricon
Instrumental (Waltz)
Yay!
O so slow

any help, will be appreciated!
Alex
 
Posts: 98
Joined: Sat Jun 08, 2013 6:56 am
Has thanked: 2 time
Have thanks: 5 time

Re: instrumental tabs

Postby wordsdrawnigh » Fri Oct 25, 2013 4:54 pm

Here is a tab of the satyricon instrumental (pretty sure it's the one by somedude):

Code: Select all
d--3------2-----3-5-----3---2---------3-------------[3]
a-------0----------------------3----6-----5---4-----[4]chords in
f-------------------------------0-----------5-------[5]square brackets
c-----0-------------0-----0------0------3-----------[5]are strummed
g-----------------------------------3------3-----3--[3]
d--3----------3-------3--------3---------------------x

d-------------------------------------------------[3]
a------1-----3---4----4---4s6-6--4-----3-----3--0-[0]
f------2---------------------------------5---5----[0]
c----0---0-----0--------5-----7--5---4---------4--[0]
g---------(5)--------6-----s8---6---5--------------x
d--2-------5--------(6)--------------------2------[3]

d--3------2-----3-5-----3---2---------3-------------[3]
a-------0----------------------3----6-----5---4-----[4]
f-------------------------------0-----------5-------[5]
c-----0-------------0-----0------0------3-----------[5]
g-----------------------------------3------3-----3--[3]
d--3----------3-------3--------3---------------------x

d--------------------------------------------------
a------1-----3---4---4---4s6--6---4-----3-----3--0-
f------2---------------------------------5---5-----
c----0---0-----0-------5-----7---5---4---------4---
g---------(5)------6------s8---6---5---------------
d--2-------5------(6)----------------------2-------

d------2--3----------2-2--0-----0------0-----------8-7-
a----0----0---0-h2---2-2--2-0----1------0-----8----7-8-
f----0--------0-h2-------------------------------------
c--2---------------2-----------2----(5)-----9--0----0--
g---------------0-------0--0--3----7------10----(9)-9--
d-0------0--0------------------------------------7-----

d-----2--3--------0--s5--3----------------------------
a---0-0--0---0-h2--------------4----4p3--2--2---1---0-
f--0---------0-h2--2---------5----5----5---0-0--2-----
c--------------------------------5-5------1-------0---
g--------------0-------0---0---3----------------------
d-0-----0--0-----------------------------------2------

d-------3-2-----3-5-----3---2--------3--------------[3]
a------------------------------3----6-----5---4-----[4]
f-------------------------------0-----------5-------[5]
c-----0-------------0-----0------0------3-----------[5]
g-----------------------------------3------3---3----[3]
d--3----------3-------3--------3---------------------x

d-------------------------------------------------[3]
a------1-----3---4---4---4s6-6---4-----3-----3--0-[0]
f------2---------------------------------5---5--0-[0]
c----0---0-----0-------5-----7---5---4---------4--[0]
g---------(5)------6------s8---6---5---------------x
d--2-------5------(6)----------------------2------[3]


d--3-3-3-2-2-3-5-5-5-3-3-2-----------3-------------[3]
a--------------------------3-------6-----5---5p4---[4]
f------------------------------------------5-------[5]
c------0-------0-------0-------0-------3-----------[5]
g----------------------------------3------3-----3--[3]
d--3-------3-------3-------3------------------------x

d-------------------------------------------------
a------1-----3---4---4---4s6-6---4-----3-----3--0-
f------2---------------------------------5---5--0-
c----0---0-----0-------5-----7---5---4---------4--
g---------(5)------6------s8---6---5--------------
d--2-------5------(6)----------------------2------

d------2--3----------2-2--0-----0------0-----------8-7-
a--0------0---0-h2---2-2--2-0----1------0-----8----7-8-
f--0----------0-h2-------------------------------------
c----2-------------2-----------2----(5)-----9--0----0--
g---------------0-------0--0--3----7------10----(9)-9--
d-0------0--0------------------------------------7-----

d-----2--3--------0--s5--3----------------------------
a---0-0--0---0-h2--------------4----4p3--2--2---1---0-
f--0---------0-h2--2---------5----5----5---0-0--2-----
c--------------------------------5-5------1-------0---
g--------------0-------0---0---3----------------------
d-0-----0--0-----------------------------------2------

d-------3-2-----3-5-----3---2--------3--------------[3]
a------------------------------3----6-----5---4-----[4]
f-------------------------------0-----------5-------[5]
c-----0-------------0-----0------0------3-----------[5]
g-----------------------------------3------3---3----[3]
d--3----------3-------3--------3---------------------x

d-------------------------------------------------[3]
a------1-----3---4---4---4s6-6---4-----3-----3--0-[0]
f------2---------------------------------5---5----[0]
c----0---0-----0-------5-----7---5---4---------4--[0]
g---------(5)------6------s8---6---5---------------x
d--2-------5------(6)----------------------2------[3]

d-------------------------------------------------[3]
a------1-----3---4--[4]---[6]---[4]---[3]---[3]---[0]
f------2------------[0]----x----[0]----x----[5]---[0]
c----0---0-----0----[5]---[7]---[5]---[4]---[4]---[0]
g---------(5)-------[6]---[8]---[6]---[5]---[5]---[2]
d--2-------5--------------------------------[2]---[3]


as far as i know, none of the others you mentioned have tabs
wordsdrawnigh
 
Posts: 24
Joined: Sun Jun 09, 2013 3:36 pm
Has thanked: 11 time
Have thanks: 7 time

Re: instrumental tabs

Postby Alex » Sat Oct 26, 2013 3:08 am

great! thank you so much! where did you get it from, where was it posted?

and really it is in G! like it was listed on his setlist http://www.sweetadeline.net/images/tifsetlist.jpg

that will motivate me to figure out the other instrumental songs sometime!
cheers
Alex
 
Posts: 98
Joined: Sat Jun 08, 2013 6:56 am
Has thanked: 2 time
Have thanks: 5 time

Re: instrumental tabs

Postby wordsdrawnigh » Sat Oct 26, 2013 2:24 pm

no prob! i had it saved on my computer. pretty sure it came from the old sweetaddy forum, now only a trace in some nsa server farm...

did he only play it that one time at satyricon? it is such a beautiful song...

glad to hear you might tab out some of the others!
wordsdrawnigh
 
Posts: 24
Joined: Sun Jun 09, 2013 3:36 pm
Has thanked: 11 time
Have thanks: 7 time


Return to Tabs and Sheet Music

Who is online

Users browsing this forum: No registered users and 1 guest

suspicion-preferred