Welcome
Visit our main site at http://alphabet-town.com!

1-27-13: Welcome Blamonet members!

Junk Bond Trader proper tab?

Junk Bond Trader proper tab?

Postby SdotC » Wed Nov 06, 2013 2:59 pm

I've seen plenty of tabs for JBT that give you the basics, but I'm looking for a real, detailed tab that has all the lead guitar in it. I say "looking for" because I've seen it before, in the form of a Power Tab (perhaps FBW's?), and it seems to have disappeared from the net. I remember one forum which is apparently defunct in which all the members had dug through all of their stuff to find every single Elliott Power Tab imaginable. I have the 19 FBW tabs that come in a .zip file, but what I really want is Junk Bond Trader. If anyone can help, it'd be greatly appreciated.

BTW, I'm new here so hey everybody! =)
SdotC
 
Posts: 1
Joined: Wed Nov 06, 2013 2:54 pm
Has thanked: 0 time
Have thanks: 0 time

Re: Junk Bond Trader proper tab?

Postby Alex » Wed Nov 06, 2013 3:47 pm

thats what i got, it's not a power tab, but anyway it can help ya!

if you're looking for the main guitar picking - its listed at the end of the tab!

Code: Select all
Junk Bond Trader

standard tuning

Cm   x3554x  G#    4665xx
D#   x6888x  F     133211
A#   6887xx  Cm*   8tt888
C    8tt988  Bb/C  x3333x
G    355433  C*    x35553

piano intro:
Cm | G# | D# | F  G#-A# | Cm | G# | D# | F  G#-A#

guitar intro:
e--11\10-------------
B---------11---8--13-
G--------------------

riff 2x
   Cm             G#              D#       F  G#-A#   
e----------------------------------------------------
B--4--4--------------------------------11\10---------
G--5--5--------------------------/8------------------
D--5--5--------------1-3-1--3p1----------------6-8---
A--3--3(clip)----1h3---------------------------6-8---
E----------------------------------------------4-6---              

(-"clip" means to strum the chord then mute it quickly.)

         Cm             G#
the imitation picks you up like a habit
D#              F    G#-A#
writing in the glow of the tv static
Cm               G#
taking out the trash to the man
D#             F   G#-A#
give the people something they understand

Cm         G#
a stick man flashing a fine-line smile
D#        F                G#-A#
junk bond trader trying to sell a sucker a style
Cm      G#
rich man in a poor man's clothes
    D#      F           G#-A#
the permanent installment of the daily dose

riff 2x

    Cm         G#
and you tell off when you tell it like it is

D#       F         G#-A#
your world's no wider than your hatred of his
Cm       G#
checking into a small reality
D#         F     G#-A#
boring as a drug you take too regularly

Cm             G#
the athelete's laugh, the broken crutch
D#            F        G#-A#
the first true love that folded at the slightest touch
Cm         G#
brought down like an old hotel
   D#              F        G#-A#
people digging through the rubble for things they can resell

bridge:

C        Bb/C
"happy holidays," said sick saviour
C*         G#       G (G may be A#)
the leaving lover i still favor
C                 Bb/C
i won't take your medicine, i don't need a remedy
C*         G'   G
to be everything i'm supposed to be
C             Bb/C
i don't want nobody else, i can do it by myself
      C*        G#  G
we're meant to be together

solo
(play solo over bridge chords)

e------8-------10/12--10--8--|--------6-----6------|
B--8-----8---8---------------|----6-----6------9-8-|
G----9-----9-----------------|------7-----7--------|
D----------------------------|-/8------------------|
A----------------------------|---------------------|
E----------------------------|---------------------|

e---------------------------------------------------
B---4------4-----4-----4------4------4-------------- played
G-----5------5-----5-----5------5------5------------ by guitar
D---------------------------------------------------
A-3------6-----5-------------------6-------5---1-2-- played
E--------------------6------4----------------------- by orchestra


riff 1x

riff variation 1x
   Cm             G#                  D#   F     G#-A#
e--------------------------------------------------------
B--4--4------------------------------------11\10---------
G--5--5-----------------3-1-3---------8------------------
D--5--5--------------1---------------/5-----------6-8----
A--3--3--(clip)--1h3------------------------------6-8----
E-------------------------------------------------4-6----

    Cm         G#
now i'm a policeman directing traffic
   D#           F       G#-A#
keeping everything moving, everything static
Cm         G#
i'm the hitchhiker you recognize passing
D#           F      G#-A#
on your way to some everlasting...

Cm   G#         D#   F G#-A#
better sell it while you can
Cm   G#         D#   F G#-A#
better sell it while you can
Cm   G#         D#   F G#-A#
better sell it while you can
Cm   G#         D#   F G#-A#
better sell it while you can

G#-A#
G#-A#
G#-A#
Cm






verse picking:
 
   Cm              G#               D#             F             G#    A#                                             
e---------8-----|-----------4-----|---------6-----|-----6-5--------------
B-----8-----8---|-------4-----4---|-----8-----8---|--------------4/6--4--
G-------8-----8-|-----5---5-----5-|-------8-----8-|----------------------
D--10-----------|--\6-------------|-6/8-----------|-6/8------------------
A---------------|-----------------|---------------|----------------------
E---------------|-----------------|---------------|----------------------

tab by david wagner
wagner@mindspring.com
and Adam Warburton

new arrangment by alexander rex
Alex
 
Posts: 98
Joined: Sat Jun 08, 2013 6:56 am
Has thanked: 2 time
Have thanks: 5 time

Re: Junk Bond Trader proper tab?

Postby Jirapush » Wed Sep 16, 2015 4:27 am

It seems not much But I think it is not difficult to understand.
Jirapush
 
Posts: 2
Joined: Wed Sep 16, 2015 2:16 am
Has thanked: 0 time
Have thanks: 0 time


Return to Tabs and Sheet Music

Who is online

Users browsing this forum: No registered users and 0 guests

suspicion-preferred