Welcome
Visit our main site at http://alphabet-town.com!

1-27-13: Welcome Blamonet members!

"o so slow" tab

"o so slow" tab

Postby Alex » Thu Jun 26, 2014 2:24 pm

took some time and much effort to do a quite simple tab of this noisy song, hope you gonna like it - or at best, PLAY IT :D
Code: Select all
o so slow (instrumental) by elliott smith


t = 10 e = 11
w = 12 h = 13
f = 14 i = 15


   E       A             E       A
e|-x-------x-------------x-------x--------------
H|-x-------x------5------x-------x--------------
G|-9-------x--5-7---7-5--9-------x--------------
D|-9---9-8-7-------------9---9-8-7--8/7-8/7-7/6-
A|-x-------7-------------x-------7--------------
E|-x-------x-------------x-------x--------------

   E       A           E       A
e|-x-------x-----------x-------x-------------
H|-x-------x-----------x-------x-------------
G|-9-------x-----------9-------x-------------
D|-9---9-8-7--8/7-9-t--9---9-8-7--9-t-w-f-i--
A|-x-------7--7---8-t--x-------7--9-t-w-f-i--
E|-x-------x-----------x-------x-------------

drums break in
(00:33)

   E       A             E       A 
e|-x-------x-------------x-------x------------- repeat
H|-x-------x-------------x-------x------------- 1x
G|-9-------x-------------9-------x-------------
D|-9---9-8-7--9-t-w-f-i--9---9-8-7--9-t-w-f-i--
A|-x-------7--9-t-w-f-i--x-------7--9-t-w-f-i--
E|-x-------x-------------x-------x-------------

(00:59)
   C     G      D     A
e|-8-----3------5-----5------
H|-8-----3------7-----5------
G|-9-----4------7-----6------
D|-t-----5------7-----7------
A|-t-----5------5-----7------
E|-8-----3------------5------

   C     E      Am    E
e|-8-----7------5-----7------------------
H|-8-----9------5-----9------------------
G|-9-----9------5-----9--9/7-4/2---------
D|-t-----9------7-----9----------5/4-2/0-
A|-t-----7------7-----7------------------
E|-8------------5------------------------

   C     E                           
e|-8-----7----------------------------
H|-8-----9--9/t-w/t-9/8-8/7-5/4-3/2---
G|-9-----9----------------------------
D|-t-----9----------------------------
A|-t-----7----------------------------
E|-8----------------------------------

(01:33)
   A           E          A           E    E
e|-0-----------0----------0-----------0----0--
H|-2---4-5-7-8-0----------2--4-5-7-8--0----0--
G|-2---4-5-7-8-1----------2--4-5-7-8--1----1--
D|-2---4-5-7-8-2--4-5-7-8-2--4-5-7-8--2----2--
A|-0-----------2--4-5-7-8-0-----------2----2--
E|-------------0----------------------0----0--

   E
e|-0-------------------- reapeat
H|-0-------------------- 4x
G|-1--------------------
D|-2---2-3-5-6-7-9-e-w--
A|-2---2-3-5-6-7-9-e-w--
E|-0---0-1-3-4-5-7-9-t--

(02:33)
   C    G    D    E
e|-8----3----5----7---------------
H|-8----3----7----9---------------
G|-9----4----7----9---------------
D|-t----5----7----9---------------
A|-t----5----5----7----------------
E|-8----3-------------------------

(02:45)
   C         E    G
e|-8-8--8-8--7-7--3-3---
H|-8-8--8-8--9-9--3-3--- repeat
G|-9-9--9-9--9-9--4-4--- 4x
D|-t-t--t-t--9-9--5-5---
A|-t-t--t-t--7-7--5-5---
E|-8-8--8-8-------3-3---

   C         B
e|-8-8--8-8--7-7--7--
H|-8-8--8-8--7-7--7--
G|-9-9--9-9--8-8--8--
D|-t-t--t-t--9-9--9--
A|-t-t--t-t--9-9--9--
E|-8-8--8-8--7-7--7--

(03:20)
   C    E    C    E
e|-8----7----8----7---
H|-8----9----8----9--- reapeat
G|-9----9----9----9--- 4x
D|-t----9----t----9---
A|-t----7----t----7---
E|-8---------8--------


continue jamin' around
till end of song

-
june 2014
Alex
 
Posts: 98
Joined: Sat Jun 08, 2013 6:56 am
Has thanked: 2 time
Have thanks: 5 time

Return to Tabs and Sheet Music

Who is online

Users browsing this forum: No registered users and 0 guests

suspicion-preferred