Welcome
Visit our main site at http://alphabet-town.com!

1-27-13: Welcome Blamonet members!

"instrumental #2" tab

"instrumental #2" tab

Postby Alex » Sat Jun 28, 2014 10:04 am

hope you like it.
the recording floating around on the internet is a little sped up - so tune each string of your guitar +20 cent up!

Code: Select all
instrumental #2 (waltz) by elliott smith


standard tuning (+ 20 cent)

Abm 466444  Eb   x68886
Bm  799777  C#   x46664
Em  022000  Em/G 322000
F#  244322  F#7  242322
B   799877  E    022100
G   355433  D    x57775


|----------------------------------------
|-4-4-4-4----6-7-4----2-2-2-2----6-7-4-0-
|-4-3--------------4--2-1----------------
|-----6-4-----------------4-2------------
|---------6-------------------4----------
|----------------------------------------

    E      G               D                      F#    B riff1
|---0---------------------------------------------2-----2-------
|---0--0/2-0/3-2-2/0-2-0--------------------------2-----4-------
|-1-1--------------------2-----2-2----------------3-----4-------
|---2------------------------4---4----------------4-----4-------
|---2----------------------5-----5--5-3-3-4-4-2---4-----2-------
|------2---2/3----------------------------------2-2-2-4---2-7-6-


  Abm   Eb    Bm    C#    Em /G F# riff2 B  riff1
|-4--4--6--6--7--7--4--4--0--0--2--------7--------
|-4--4--8--8--7--7--6--6--0--0--2--------7--------
|-4--4--8--8--7--7--6--6--0--0--3--------8--------
|-6--6--8--8--9--9--6--6--2--2--4--------9--------
|-6--6--6--6--9--9--4--4--2--2--4--------9--------
|-4--4--------7--7--------0--3--2--2/6-7-7--2-7-6-


  Abm   Eb    Bm    C#    Em /G F# riff2 B    F#7
|-4--4--6--6--7--7--4--4--0--0--2--------7-----2--
|-4--4--8--8--7--7--6--6--0--0--2--------7-----2--
|-4--4--8--8--7--7--6--6--0--0--3--------8-----3--
|-6--6--8--8--9--9--6--6--2--2--4--------9-----2--
|-6--6--6--6--9--9--4--4--2--2--4--------9-----4--
|-4--4--------7--7--------0--3--2--2/6-7-7-----2--


|----------------------------------------
|-4-4-4-4----6-7-4----2-2-2-2----6-7-4-0-
|-4-3--------------4--2-1----------------
|-----6-4-----------------4-2------------
|---------6-------------------4----------
|----------------------------------------

  E    G    D    F# riff2 B riff1
|-0----3----5----2--------7--------
|-0----3----7----2--------7--------
|-1----4----7----3--------8--------
|-2----5----7----4--------9--------
|-2----5----5----4--------9--------
|-0-/2/3---------2--2/6-7-7--2-7-6-

  Abm   Eb    Bm    C#    Em /G F# riff2 B    F#7
|-4--4--6--6--7--7--4--4--0--0--2--------7-----2--
|-4--4--8--8--7--7--6--6--0--0--2--------7-----2--
|-4--4--8--8--7--7--6--6--0--0--3--------8-----3--
|-6--6--8--8--9--9--6--6--2--2--4--------9-----2--
|-6--6--6--6--9--9--4--4--2--2--4--------9-----4--
|-4--4--------7--7--------0--3--2--2/6-7-7-----2--


|----------------------------------------
|-4-4-4-4----6-7-4----2-2-2-2----6-7-4-0-
|-4-3--------------4--2-1----------------
|-----6-4-----------------4-2------------
|---------6-------------------4----------
|----------------------------------------

  E    G    D    F# riff2
|-0----3----5----2--------
|-0----3----7----2--------
|-1----4----7----3--------
|-2----5----7----4--------
|-2----5----5----4--------
|-0-/2/3---------2--2/6-7-


B Eb Bm C# Em Em/G F# B

-
June 2014
Alex
 
Posts: 98
Joined: Sat Jun 08, 2013 6:56 am
Has thanked: 2 time
Have thanks: 5 time

Re: "instrumental #2" tab

Postby Alex » Sun Jul 06, 2014 8:36 am

i made some slight changes .. one riff was tabbed out wrong -
so here's the overworked version:

Code: Select all
instrumental #2 (waltz) by elliott smith


standard tuning (+ 20 cent)

Abm 466444  Eb   x68886
Bm  799777  C#   x46664
Em  022000  Em/G 322000
F#  244322  F#7  242322
B   799877  E    022100
G   355433  D    x57775


|----------------------------------------
|-4-4-4-4----6-7-4----2-2-2-2----6-7-4-0-
|-4-3--------------4--2-1----------------
|-----6-4-----------------4-2------------
|---------6-------------------4----------
|----------------------------------------

    E      G               D                      F#      B riff1
|---0---------------------------------------------2-------2-------
|---0--0/2-0/3-2-2/0-2-0--------------------------2-------4-------
|-1-1--------------------2-----2-2----------------3-------4-------
|---2------------------------4---4----------------4-------4-------
|---2----------------------5-----5--5-3-3-4-4-2---4-----2-2-------
|------2---2/3----------------------------------2-2-2-4-----2-7-6-


  Abm   Eb    Bm    C#    Em /G F# riff2 B  riff1
|-4--4--6--6--7--7--4--4--0--0--2--------7--------
|-4--4--8--8--7--7--6--6--0--0--2--------7--------
|-4--4--8--8--7--7--6--6--0--0--3--------8--------
|-6--6--8--8--9--9--6--6--2--2--4--------9--------
|-6--6--6--6--9--9--4--4--2--2--4------2-9--------
|-4--4--------7--7--------0--3--2--2-4---7--2-7-6-


  Abm   Eb    Bm    C#    Em /G F# riff2 B    F#7
|-4--4--6--6--7--7--4--4--0--0--2--------7-----2--
|-4--4--8--8--7--7--6--6--0--0--2--------7-----2--
|-4--4--8--8--7--7--6--6--0--0--3--------8-----3--
|-6--6--8--8--9--9--6--6--2--2--4--------9-----2--
|-6--6--6--6--9--9--4--4--2--2--4------2-9-----4--
|-4--4--------7--7--------0--3--2--2-4---7-----2--


|----------------------------------------
|-4-4-4-4----6-7-4----2-2-2-2----6-7-4-0-
|-4-3--------------4--2-1----------------
|-----6-4-----------------4-2------------
|---------6-------------------4----------
|----------------------------------------

  E    G    D    F# riff2 B riff1
|-0----3----5----2--------7--------
|-0----3----7----2--------7--------
|-1----4----7----3--------8--------
|-2----5----7----4--------9--------
|-2----5----5----4------4-9--------
|-0-/2/3---------2--2-4---7--2-7-6-

  Abm   Eb    Bm    C#    Em /G F# riff2 B    F#7
|-4--4--6--6--7--7--4--4--0--0--2--------7-----2--
|-4--4--8--8--7--7--6--6--0--0--2--------7-----2--
|-4--4--8--8--7--7--6--6--0--0--3--------8-----3--
|-6--6--8--8--9--9--6--6--2--2--4--------9-----2--
|-6--6--6--6--9--9--4--4--2--2--4------2-9-----4--
|-4--4--------7--7--------0--3--2--2-4---7-----2--


|----------------------------------------
|-4-4-4-4----6-7-4----2-2-2-2----6-7-4-0-
|-4-3--------------4--2-1----------------
|-----6-4-----------------4-2------------
|---------6-------------------4----------
|----------------------------------------

  E    G    D    F# riff2
|-0----3----5----2--------
|-0----3----7----2--------
|-1----4----7----3--------
|-2----5----7----4--------
|-2----5----5----4------2-
|-0-/2/3---------2--2-4---


B Eb Bm C# Em Em/G F# B

-
july 2014

v 2.0
Alex
 
Posts: 98
Joined: Sat Jun 08, 2013 6:56 am
Has thanked: 2 time
Have thanks: 5 time


Return to Tabs and Sheet Music

Who is online

Users browsing this forum: No registered users and 0 guests

suspicion-preferred