Welcome
Visit our main site at http://alphabet-town.com!

1-27-13: Welcome Blamonet members!

Punch & Judy alternate tabs?

Punch & Judy alternate tabs?

Postby bneiluj » Thu Sep 12, 2013 7:47 am

Just wanted to know if anyone have seen a tabs for the other version of Punch & Judy... any help would be appreciate!
bneiluj
 
Posts: 4
Joined: Thu Sep 12, 2013 7:46 am
Has thanked: 0 time
Have thanks: 0 time

Re: Punch & Judy alternate tabs?

Postby Alex » Tue Sep 17, 2013 9:06 am

hey, what a brilliant song! what a great mood - it always feels like i'm getting into a tense situation. the drums are doing a lot of great work on that song!

here's the tab: just figured it out today!
enjoy to play that one!

Code: Select all
punch and judy (other version) - elliott smith

standard tuning
use a pick

D*  xx0230  C   x32010
F   133211  G   355433
F#m 2442xx  C#  4466xx
Bbm 6886xx  G#  4665xx
G#m 466444  B   799677


   D*            D*            D*    C     F   riff 1
e|---------0-------------0----------------------------- play 4 times
B|-----3-----3-------3-----3-------3-----1----1--3--1--
G|---2---2------2--2---2------2--2-----0------2--4--2--
D|-0-------------0-------------0-----------3--3--5--3--
A|-----------------------------------3-----3-----x--x--
E|-----------------------------------------1------------



D*                           D*                 D*      C  F  riff 1
a wallpaper pulls his punch, talks to judy in a crowded corner
D*                         D*         D*       C  F  riff 1
he don't read page to page or say the words in order
D*                      D*               D*     C        F  riff 1
judy's illustrating and she's a stranger to the straight face
D*                        D*      D*    C  F    riff 1
always seems so far away, staring out into space

hihat break

D*                        D*                 D*      C      F      riff 1
"i'm sorry, tried to stay away" says punch, "later account, though"
D*                         D*              D*        C  F  riff 1
you dress like an opposite but really it's more than echo
D*                      D*                               D*        C   F riff 1
judy leans over, like a strike of a clock says, "i don't buy that, boy."
D*                        D*                     D*    C   F  riff 1
there's two inside of you and they're both gonna be destroyed.


F#m                        C#
in the alley, mixing blood cheek to cheek
Bbm                   G#                    F#m           G#m B
you're up against the words you never could dare to speak
F#m                C#
it's your conflict shored up tight
Bbm        G#                    F#m         C#
your heavy steps that follow her steps so light

D*                   D*               D*           C    F riff 1       
so judy holds punch, cufflinks inside her clenched fist
D*                 D*          D*      C    F riff 1
she had a dream of bandages on punch's wrist
D*                       D*                           D*         C   F riff 1
so she sees punch with a thorn in his hand and says, "stop right there
D*                    D*              D*     C  F  riff 1         
what the **** are you doing don't you know i care?"

hihat break

D*                          D*                   D*    C  F   riff 1
but she hears the bark of a cop and drops to the dirty street
D*                              D*                       D*         C  F riff 1
"i wonder," punch says, "do you know what at all, what's protecting me?"
D*                   D*                    D*       C   F  riff 1   
judy used to hold me like a pencil writing out some change
D*                    D*        D*         C  F  riff 1
her cheap philosopher was spare change for brains

F#m                        C#
in the alley, mixing blood cheek to cheek
Bbm                   G#                    F#m           G#m B
you're up against the words you never could dare to speak
F#m                C#
it's your conflict shored up tight
Bbm        G#                             F#m   C#
your heavy steps that follow her steps so light
Alex
 
Posts: 98
Joined: Sat Jun 08, 2013 6:56 am
Has thanked: 2 time
Have thanks: 5 time

Re: Punch & Judy alternate tabs?

Postby wordsdrawnigh » Fri Sep 20, 2013 8:53 pm

Sounds good... Thanks for all the work you've been doing tabbing Elliott's songs, Alex! It is much appreciated, at least by someone as tonally-impaired as myself! Been wanting to learn this song as well...
wordsdrawnigh
 
Posts: 24
Joined: Sun Jun 09, 2013 3:36 pm
Has thanked: 11 time
Have thanks: 7 time

Re: Punch & Judy alternate tabs?

Postby Alex » Thu Sep 26, 2013 12:23 pm

thanks! good to know, that someone cares 'bout! :D
hope you like it, .. probably more tabs are coming!
Alex
 
Posts: 98
Joined: Sat Jun 08, 2013 6:56 am
Has thanked: 2 time
Have thanks: 5 time

Re: Punch & Judy alternate tabs?

Postby bneiluj » Mon Oct 21, 2013 7:20 am

I had forgotten about my request here... thank you so much for the tab, it's sound really great! Good job for a great song... it's greatly appreciated.
bneiluj
 
Posts: 4
Joined: Thu Sep 12, 2013 7:46 am
Has thanked: 0 time
Have thanks: 0 time

Re: Punch & Judy alternate tabs?

Postby anosh » Mon Apr 13, 2015 6:22 am

Hey, i'm looking for any tabs or even fragments of tabs and chords of the instrumental songs elliott wrote. I like to give it a try and figure them out.
I know that "somedude" knows how to play the (10.14.99)satyricon-instrumental .. but i couldn't find any tab on the internet, even not on his page (smilingatconfusion).


___________
Last edited by anosh on Mon Jun 15, 2015 3:30 am, edited 2 times in total.
anosh
 
Posts: 1
Joined: Mon Apr 13, 2015 6:19 am
Has thanked: 0 time
Have thanks: 0 time

Re: Punch & Judy alternate tabs?

Postby wordsdrawnigh » Tue Apr 14, 2015 1:43 pm

here you go

Code: Select all
d--3------2-----3-5-----3---2---------3-------------[3]
a-------0----------------------3----6-----5---4-----[4]chords in
f-------------------------------0-----------5-------[5]square brackets
c-----0-------------0-----0------0------3-----------[5]are strummed
g-----------------------------------3------3-----3--[3]
d--3----------3-------3--------3---------------------x

d-------------------------------------------------[3]
a------1-----3---4----4---4s6-6--4-----3-----3--0-[0]
f------2---------------------------------5---5----[0]
c----0---0-----0--------5-----7--5---4---------4--[0]
g---------(5)--------6-----s8---6---5--------------x
d--2-------5--------(6)--------------------2------[3]

d--3------2-----3-5-----3---2---------3-------------[3]
a-------0----------------------3----6-----5---4-----[4]
f-------------------------------0-----------5-------[5]
c-----0-------------0-----0------0------3-----------[5]
g-----------------------------------3------3-----3--[3]
d--3----------3-------3--------3---------------------x

d--------------------------------------------------
a------1-----3---4---4---4s6--6---4-----3-----3--0-
f------2---------------------------------5---5-----
c----0---0-----0-------5-----7---5---4---------4---
g---------(5)------6------s8---6---5---------------
d--2-------5------(6)----------------------2-------

d------2--3----------2-2--0-----0------0-----------8-7-
a----0----0---0-h2---2-2--2-0----1------0-----8----7-8-
f----0--------0-h2-------------------------------------
c--2---------------2-----------2----(5)-----9--0----0--
g---------------0-------0--0--3----7------10----(9)-9--
d-0------0--0------------------------------------7-----

d-----2--3--------0--s5--3----------------------------
a---0-0--0---0-h2--------------4----4p3--2--2---1---0-
f--0---------0-h2--2---------5----5----5---0-0--2-----
c--------------------------------5-5------1-------0---
g--------------0-------0---0---3----------------------
d-0-----0--0-----------------------------------2------

d-------3-2-----3-5-----3---2--------3--------------[3]
a------------------------------3----6-----5---4-----[4]
f-------------------------------0-----------5-------[5]
c-----0-------------0-----0------0------3-----------[5]
g-----------------------------------3------3---3----[3]
d--3----------3-------3--------3---------------------x

d-------------------------------------------------[3]
a------1-----3---4---4---4s6-6---4-----3-----3--0-[0]
f------2---------------------------------5---5--0-[0]
c----0---0-----0-------5-----7---5---4---------4--[0]
g---------(5)------6------s8---6---5---------------x
d--2-------5------(6)----------------------2------[3]


d--3-3-3-2-2-3-5-5-5-3-3-2-----------3-------------[3]
a--------------------------3-------6-----5---5p4---[4]
f------------------------------------------5-------[5]
c------0-------0-------0-------0-------3-----------[5]
g----------------------------------3------3-----3--[3]
d--3-------3-------3-------3------------------------x

d-------------------------------------------------
a------1-----3---4---4---4s6-6---4-----3-----3--0-
f------2---------------------------------5---5--0-
c----0---0-----0-------5-----7---5---4---------4--
g---------(5)------6------s8---6---5--------------
d--2-------5------(6)----------------------2------

d------2--3----------2-2--0-----0------0-----------8-7-
a--0------0---0-h2---2-2--2-0----1------0-----8----7-8-
f--0----------0-h2-------------------------------------
c----2-------------2-----------2----(5)-----9--0----0--
g---------------0-------0--0--3----7------10----(9)-9--
d-0------0--0------------------------------------7-----

d-----2--3--------0--s5--3----------------------------
a---0-0--0---0-h2--------------4----4p3--2--2---1---0-
f--0---------0-h2--2---------5----5----5---0-0--2-----
c--------------------------------5-5------1-------0---
g--------------0-------0---0---3----------------------
d-0-----0--0-----------------------------------2------

d-------3-2-----3-5-----3---2--------3--------------[3]
a------------------------------3----6-----5---4-----[4]
f-------------------------------0-----------5-------[5]
c-----0-------------0-----0------0------3-----------[5]
g-----------------------------------3------3---3----[3]
d--3----------3-------3--------3---------------------x

d-------------------------------------------------[3]
a------1-----3---4---4---4s6-6---4-----3-----3--0-[0]
f------2---------------------------------5---5----[0]
c----0---0-----0-------5-----7---5---4---------4--[0]
g---------(5)------6------s8---6---5---------------x
d--2-------5------(6)----------------------2------[3]

d-------------------------------------------------[3]
a------1-----3---4--[4]---[6]---[4]---[3]---[3]---[0]
f------2------------[0]----x----[0]----x----[5]---[0]
c----0---0-----0----[5]---[7]---[5]---[4]---[4]---[0]
g---------(5)-------[6]---[8]---[6]---[5]---[5]---[2]
d--2-------5--------------------------------[2]---[3]
wordsdrawnigh
 
Posts: 24
Joined: Sun Jun 09, 2013 3:36 pm
Has thanked: 11 time
Have thanks: 7 time


Return to Tabs and Sheet Music

Who is online

Users browsing this forum: No registered users and 1 guest

suspicion-preferred