Welcome
Visit our main site at http://alphabet-town.com!

1-27-13: Welcome Blamonet members!

come to me

come to me

Postby Alex » Sat Mar 14, 2015 8:48 am

Code: Select all
Come to me - Elliott Smith
Tabbed by Fred Dutton

This is a really simple song, sounds like he wrote it pretty quickly. The
lyrics might be wrong.

Capo 1st fret

C(032010)
G(320003)
F(x33210)
Dm(xx0231)
Am(x02210)
E(022100)
Cadd9(032013)

Intro (basic picking pattern continues throughout song):

C          G         F       C
------------------------------------------------------------
-------1-------------0-------------1-------------1----------
---0-----0---0---0-----0---0---2-----2---2---0-----0---0----
-----2-----2-------0-----0---3---3-----3-------2-----2------
-3-----------------------------------------3----------------
---------------3--------------------------------------------

Dm        Am         F
-------1----------------------------------------------------
---3-----3---3-------1-------------1-----1-----1------------
-----2-----2-----2-----2---2---2-----2-----2-----2---2------
-0-------------2---2-----2---3---3-----3-----3-----3--------
------------------------------------------------------------
------------------------------------------------------------

C              Dm
I'm not into coming through

E         F
More accustomed to falling out

Cadd9          Dm
Trying hard now as i can for you

E               F
Not to trip up on some stupid doubt

C              Dm
Got your hopes set way up high

E               F
Way on up there where the air is thin

Cadd9                Dm
Limit's supposed to be the sky

E             F
Trying not let you down again

C   G    F     C
Starting to come to me

Dm       Am    F
Didnt know about, I hadn't figured it out

       C    G   F      F
But it's starting to come to me now

Dm        Am      F
A little bit too late

C                   Dm
I can't see anything you've done

E           F
Any reason for the trouble you've got

Cadd9         Dm
You haven't heard anyone

E                   F
Compared to most i'd say you're quite alright

C                  Dm
I can't help you when you're sad

E                 F
That's a constant source of pain to me

Cadd9             Dm
Because i want you really bad

E                F
Even though you make it seem like nothing

C   G    F    C
Starting to come to me

Dm           Am      F
I didn't know about, I hadn't figured it out

       C    G   F      C
But it's starting to come to me now

Dm        Am       F
A little bit too late


----------------------------

-------------------------------------------------------------------------------
                 YOU MAKE IT SEEM LIKE NOTHING - Elliott Smith
-------------------------------------------------------------------------------
Tabbed by: Erik Silkensen
Email: [email protected]

Tuning: 1/2 step down

Played acoustic fingerstyle.

Chords:

           C          G          F          Dm         Am         E
eb|--------0----------3----------0----------1----------0----------0----------|
Bb|--------1----------0----------1----------3----------1----------0----------|
Gb|--------0----------0----------2----------2----------2----------1----------|
Db|--------2----------0----------3----------0----------2----------2----------|
Ab|--------3----------2----------3----------x----------0----------2----------|
Eb|--------0----------3----------x----------x----------x----------0----------|

  Intro: C G F C Dm Am F

  Verse:

C                     Dm
I'm not used to coming through
E                     F
I'm more accustomed to a falling out
C                     Dm
I'm trying hard now as I can for you
E                     F
Not to **** up on some stupid doubt

C                     Dm
I got your hopes set way up high
E                     F
Way on up there where the air is thin
C                     Dm
The limit's supposed to be the sky
E                     F
I'm trying not to let you down again

  Chorus:

C      G    F         C
It's starting to come to me
Dm          Am     F
I didn't know about, I hadn't figured it out
     C      G    F         C       
But it's starting to come to me now
Dm       Am     F
A little bit too late

  Verse:

C                     Dm
I can't see anything you've done
E                     F
Any reason for the trouble you've got
C                     Dm
You haven't hurt anyone
E                     F
Compared to most I'd say that's saying quite a lot

C                     Dm
I can't help you when you're sad
E                     F
That's a constant source of pain to me
C                     Dm
Because I want to really bad
E                     F
Even though you make it seem like nothing

  Chorus:

C      G    F         C
It's starting to come to me
Dm          Am     F
I didn't know about, I hadn't figured it out
     C      G    F         C       
But it's starting to come to me now
Dm       Am     F
A little bit too late
Alex
 
Posts: 98
Joined: Sat Jun 08, 2013 6:56 am
Has thanked: 2 time
Have thanks: 5 time

Re: come to me

Postby McShambles » Tue Aug 16, 2016 12:38 pm

6th string should be tuned down one whole step
McShambles
 
Posts: 6
Joined: Thu Sep 03, 2015 8:22 am
Has thanked: 0 time
Have thanks: 0 time


Return to Unofficial Tracks

Who is online

Users browsing this forum: No registered users and 0 guests

suspicion-preferred